Relentless Misery

(/) Slide Up  (\) Slide Down  (h) Hammer On  (p) Pull Off  (b) Bend (r) Release (v) Vibrato

E|-----------------------------------------|--------------------------------------------|--
B|-----------------------------------------|--------------------------------------------|--
G|-----------------------------------------|--------------------------------------------|--
D|-----------------------------------------|--------------------------------------------|--
A|-----------------7--------5--------------|-----------------------2--------------------|--
E|--0--1--0--2--0-----5--0-----3--0--1--2--|--0--1--0--2--0--2--3-----3--2--0--2--3--2--|--



E|--------------------------------------------------------------------------
B|--------------------------------------------------------------------------
G|--------------------------------------------------------------------------
D|--------------------------------------------------------------------------
A|--------------------------------------------------------------------------
E|--3--0--0--1--0--0--0--0--3--0--0--1--0--0--0--0--3--0--0--1--0--0--0--0--



E|--------------------------|--
B|--------------------------|--
G|--------------------------|--
D|--------------------3--5--|--
A|--------------------------|--
E|--3--0--0--1--0--0--------|--



E|--------------------------------------------------------------------------
B|--------------------------------------------------------------------------
G|--------------------------------------------------------------------------
D|--------------------------------------------------------------------------
A|--------------------------------------------------------------------------
E|--3--0--0--1--0--0--0--0--3--0--0--1--0--0--0--0--3--0--0--1--0--0--0--0--



E|------------------------|--
B|------------------------|--
G|------------------------|--
D|--------------------0/2h|--
A|------------------------|--
E|--3--0--0--1--0--0------|--



E|-----------------------------------------|-----------------------------------------|--
B|-----------------------------------------|-----------------------------------------|--
G|-----------------------------------------|-----------------------------------------|--
D|-----------------------------------------|-----------------------------------------|--
A|-----------5--------------------5--------|-----------5-----------------------------|--
E|--0--5--6-----6--5--3--0--5--6-----6--5--|--0--5--6-----6--5--3--0--5--6--0--1--2--|--



E|-----------------------------------------------------------------|-
B|-----------------------------------------------------------------|-
G|-----------------------------------------------------------------|-
D|-----------------------------------------------------------------|-
A|---------------------------------7---------------5---------------|-
E|-1-1-1-1-1-1-1-1-2-2-2-2-2-2-2-2---5-5-5-5-5-5-5---3-3-3-3-3-3-3-|-



E|----------------------------------------|--------------------------------------|--
B|----------------------------------------|--------------------------------------|--
G|----------------------------------------|--------------------------------------|--
D|----------------------------------------|--------------------------------------|--
A|----------------------------------------|--------------------------------------|--
E|--5--5--5--5--0--1--0--1--0--1/3--3--3--|--5--5--5--5--3--1--3--1--0--3--1--0--|--



E|-----------------------------------------|--------------------------------------------|--
B|-----------------------------------------|--------------------------------------------|--
G|-----------------------------------------|--------------------------------------------|--
D|-----------------------------------------|--------------------------------------------|--
A|-----------5--------------------5--------|--------------------------------------------|--
E|--0--5--6-----6--5--3--0--5--6-----6--5--|--0--5--7--0--7--9--0--9--7--0--7--5--3--5--|--
http://www.guitartabcreator.com
Guitar Tab Creator is intended to store guitar tab created through the tool. It currently does not support in-line text editing. Any text you place in here will be lost. If you need to comment on your tab, please use the "Tab Notes" section located below.