Breaking the atom

(/) Slide Up  (\) Slide Down  (h) Hammer On  (p) Pull Off  (b) Bend (r) Release (v) Vibrato


E|-------------------------------------------------------------------------------------|-
B|-------------------------------------------------------------------------------------|-
G|-------------------------------------------------------------------------------------|-
D|-------------------------------------------------------------------------------------|-
A|-----------------------------------------------------------------------------4-4-3-3-|-
E|-0-0-0-0-0-0-0-0-0--1-3--0-0-0-0-0-0-0-0-0--1-3--0-0-0-0-0-0-0-0-0--1-3--5-5---------|-



E|--------------------------------------------------------------------------------------------|--
B|--------------------------------------------------------------------------------------------|--
G|--------------------------------------------------------------------------------------------|--
D|--------------------------------------------------------------------------------------------|--
A|-----------------------5--5--5--5--3--3--3--3-----------------------2--2--2--2--4--4--4--4--|--
E|--0--0--0--0--0--0--0--------------------------0--0--0--0--0--0--0--------------------------|--



E|--------------------------------------------------------------------------------------------|--
B|--------------------------------------------------------------------------------------------|--
G|--------------------------------------------------------------------------------------------|--
D|-----------------------5--5--5--5--3--3--3--3-----------------------4--3--0--4--3--0--4--3--|--
A|--------------------------------------------------------------------------------------------|--
E|--0--0--0--0--0--0--0--------------------------0--0--0--0--0--0--0--------------------------|--



E|--------------------------------------------------------|-
B|--------------------------------------------------------|-
G|--------------------------------------------------------|-
D|--------------------------------------------------------|-
A|--------------------------------------------------------|-
E|-0-2-2--2-2-2--2-2-2--2-2-2--0-1-1--1-1-1--1-1-1--1-1-1-|-



E|----------------------------------------------------------------------------------------
B|----------------------------------------------------------------------------------------
G|----------------------------------------------------------------------------------------
D|----------------------------------------------------------------------------------------
A|----------------------------------------------------------------------------------------
E|-6-6-6-6-6-6-6-6-5-5-5-5-5-5-5-5--6-5-3-0--6-6-6-6-6-6-6-6-5-5-5-5-5-5-5-5--6-3-0-6-3-0-



E|------------------------------------------------------------------
B|------------------------------------------------------------------
G|------------------------------------------------------------------
D|-------6----------------------------------------------------------
A|----6-----6-------------------------------------------------------
E|-6-----------5---6-5-3-0-6-6-6-6-6-6-6-6-5-5-5-5-5-5-5-5--6-5-3-0-



E|-----
B|-----
G|-----
D|-----
A|-----
E|-----
http://www.guitartabcreator.com
Guitar Tab Creator is intended to store guitar tab created through the tool. It currently does not support in-line text editing. Any text you place in here will be lost. If you need to comment on your tab, please use the "Tab Notes" section located below.