Erza vs Erza

(/) Slide Up  (\) Slide Down  (h) Hammer On  (p) Pull Off  (b) Bend (r) Release (v) Vibrato

E|--------------15------------------15------
B|--17--15--17------17--17--15--17------17--
G|------------------------------------------
D|------------------------------------------
A|------------------------------------------
E|------------------------------------------



E|--19--17--15--15------17--15----------15--------------
B|------------------19----------17--19------19--15--19--
G|------------------------------------------------------
D|------------------------------------------------------
A|------------------------------------------------------
E|------------------------------------------------------
http://www.guitartabcreator.com
Guitar Tab Creator is intended to store guitar tab created through the tool. It currently does not support in-line text editing. Any text you place in here will be lost. If you need to comment on your tab, please use the "Tab Notes" section located below.