All this Time

(/) Slide Up  (\) Slide Down  (h) Hammer On  (p) Pull Off  (b) Bend (r) Release (v) Vibrato


E|--------------
B|--------------
G|--------------
D|--------------
A|--7--4--------
E|--------5--7--



E|----------------------------------------
B|----------------------------------------
G|----------------------------------------
D|----------------------------------------
A|--12--4--------12--4--------7--4--------
E|---------5--7---------5--7--------5--7--



E|--------------
B|--------------
G|--------------
D|--------------
A|--7--4--------
E|--------5--7--



E|------------------------------------------------
B|------------------------------------------------
G|------------------------------------------------
D|------------------------------------------------
A|--7--4--------7--4---------------7--4-----------
E|--------5--7--------5--7--9--11--------5--7-----
http://www.guitartabcreator.com
Guitar Tab Creator is intended to store guitar tab created through the tool. It currently does not support in-line text editing. Any text you place in here will be lost. If you need to comment on your tab, please use the "Tab Notes" section located below.