Love Somebody

(/) Slide Up  (\) Slide Down  (h) Hammer On  (p) Pull Off  (b) Bend (r) Release (v) Vibrato
E|-------------------------------------------------
B|--------2h3--------2h3--------2h3--------2h3-----
G|-----2----------2----------2----------2----------
D|--0----------0----------0----------0-------------
A|-------------------------------------------------
E|-------------------------------------------------



E|----------------------------------------------
B|--------2h3--------2h3--------2h3--------2h3--
G|-----2----------2----------2----------2-------
D|--0----------0----------0----------0----------
A|----------------------------------------------
E|----------------------------------------------



E|-----------------0--------
B|-----------------------3--
G|--------------------------
D|--------------------------
A|--------0-----------------
E|--0--0--0--0--0--0--0--0--



E|--0-----0-----0--0--2--0----------------------------
B|----------------------------3-----------------------
G|----------------------------------------------------
D|----------------------------------0--------0-----0--
A|--4--4--4--4--4--4--4--4----2--2--2--2--2--2--2--5--
E|----------------------------------------------------



E|-----------------
B|--------------3--
G|-----------------
D|-----------------
A|--------5--------
E|--5--5--5--5--5--
http://www.guitartabcreator.com
Guitar Tab Creator is intended to store guitar tab created through the tool. It currently does not support in-line text editing. Any text you place in here will be lost. If you need to comment on your tab, please use the "Tab Notes" section located below.