恋するフォーチュンクッキー

(/) Slide Up  (\) Slide Down  (h) Hammer On  (p) Pull Off  (b) Bend (r) Release (v) Vibrato
E|----------------------5-------------------------------------------------5---------------------0--
B|-------------7--5--7---------------------------7---------------7--5--7------------------2--3-----
G|--7--7--7-----------------------------7--6--7-------7--7--7--------------------------------------
D|--7--7--7------------------9--9--9------------------7--7--7------------------9--9--9-------------
A|--5--5--5------------------9--9--9------------------5--5--5------------------9--9--9-------------
E|---------------------------9--9--9-------------------------------------------9--9--9-------------



E|--2--3-----3--5------------0-----0--2------2--3-----3--5------------0-----0--2--
B|-----------------3------3-----3---------------------------3------3-----3--------
G|--------------------------------------------------------------------------------
D|--------------------------------------------------------------------------------
A|------------------------2-----2----------------------------------2-----2--------
E|--0-----0----------------------------------0-----0------------------------------



E|--
B|--
G|--
D|--
A|--
E|--
http://www.guitartabcreator.com
Guitar Tab Creator is intended to store guitar tab created through the tool. It currently does not support in-line text editing. Any text you place in here will be lost. If you need to comment on your tab, please use the "Tab Notes" section located below.