キセキ Lead Tab

(/) Slide Up  (\) Slide Down  (h) Hammer On  (p) Pull Off  (b) Bend (r) Release (v) Vibrato

Stave 1:

E|--0--3--3----0--3--3--1--0--------------0--0------0--1--0-----------------0--1--0-----0--------
B|----------------------------3--3--1--3---------------------3--1--1-----------------1-----3-----
G|--------------------------------------------------------------------0--0-----------------------
D|-----------------------------------------------------------------------------------------------
A|-----------------------------------------------------------------------------------------------
E|-----------------------------------------------------------------------------------------------

Stave 2:

E|--0--3--3----0--3--4--0-----0-----------0--0------0--1--0--------------------
B|-------------------------3-----3--1--3---------------------3--1--3--3--1--1--
G|-----------------------------------------------------------------------------
D|-----------------------------------------------------------------------------
A|-----------------------------------------------------------------------------
E|-----------------------------------------------------------------------------

Stave 3:

E|-----0-----------------5--3-----------1--3--5--3------------1--3--5--3--
B|--3-----3--1--0--1-----------1--1--1------------------1--1--------------
G|--------------------2---------------------------------------------------
D|------------------------------------------------------------------------
A|------------------------------------------------------------------------
E|------------------------------------------------------------------------

Stave 4:

E|--3--------------------0----------0-----------------5--3-----------1--3--5--3--
B|-----3--1--1--3--1--3-----3----3-----3--1--0--1-----------1--1--1--------------
G|-------------------------------------------------2-----------------------------
D|-------------------------------------------------------------------------------
A|-------------------------------------------------------------------------------
E|-------------------------------------------------------------------------------

Stave 5:

E|-----1--3--5--3----3-----------1--0--0--1--3--4--3--4--6--
B|--1-------------------3--1--1-----------------------------
G|----------------------------------------------------------
D|----------------------------------------------------------
A|----------------------------------------------------------
E|----------------------------------------------------------

Stave 6:

E|-----------0--1--0-------------------0--1--3-------------------0--1--3--5--3--
B|--1--3--3-----------3--3----1--3--3-----------1--1----1--3--3-----------------
G|------------------------------------------------------------------------------
D|------------------------------------------------------------------------------
A|------------------------------------------------------------------------------
E|------------------------------------------------------------------------------

Stave 7:

E|--0--3--1--0--------0-------0-----------------5--3-------0-----------------1--0--0--
B|--------------3--1-------3-----3--1--0--1-------------1-----3--1--0--1--------------
G|-------------------------------------------2----------------------------2-----------
D|------------------------------------------------------------------------------------
A|------------------------------------------------------------------------------------
E|------------------------------------------------------------------------------------

Stave 8:

E|-----0-------------------0-------------------------------0--------------
B|--3-----3--1--0--1----1-----3--1--3--1----------------1-----3--0--1--1--
G|----------------------------------------0--0----0--0--------------------
D|------------------------------------------------------------------------
A|------------------------------------------------------------------------
E|------------------------------------------------------------------------

http://www.guitartabcreator.com
Guitar Tab Creator is intended to store guitar tab created through the tool. It currently does not support in-line text editing. Any text you place in here will be lost. If you need to comment on your tab, please use the "Tab Notes" section located below.