Spine- Who Are You?

(/) Slide Up  (\) Slide Down  (h) Hammer On  (p) Pull Off  (b) Bend (r) Release (v) Vibrato

E|----------------------------------------------------
B|----------------------------------------------------
G|----------------------------------------------------
D|----------------------------------------------------
A|----------------------------------------------------
E|--1------1------1--1--1--3--3--3--1--1--1--4--4--4--



E|-------------------------------
B|-------------------------------
G|-------------------------------
D|-------------------------------
A|-1-1-1-1-4-4-4-4-1-1-1-1-3--2--
E|-------------------------------



E|--------------------------------
B|--------------------------------
G|--------------------------------
D|--------------------------------
A|--------------------------------
E|--1--1--1--3--3--3--1--1--1--4--



E|--------------------------------------------------
B|--------------------------------------------------
G|--------------------------------------------------
D|--------------------------------------------------
A|--------------------------------------------------
E|--4--4--4--4--3--3--3--0--0--0--0--0--0--0--0--0--



E|--------------------------------------------------
B|--------------------------------------------------
G|--------------------------------------------------
D|--------------------------------------------------
A|-----------------------------------------6--------
E|--4--4--4--4--3--3--3--0--0--0--0--0--0-----------



E|--------------------------------------------------
B|--------------------------------------------------
G|--------------------------------------------------
D|--------------------------------------------------
A|-------------------------------------------6------
E|--4------0------0--1------4------0------0---------
http://www.guitartabcreator.com
Guitar Tab Creator is intended to store guitar tab created through the tool. It currently does not support in-line text editing. Any text you place in here will be lost. If you need to comment on your tab, please use the "Tab Notes" section located below.