Spine- The Stance

(/) Slide Up  (\) Slide Down  (h) Hammer On  (p) Pull Off  (b) Bend (r) Release (v) Vibrato


E|--------------------------------------------------
B|--------------------------------------------------
G|--------------------------------------------------
D|--------------------------------------------------
A|--4--------4--------4--4--4--3--3--3--------------
E|--------------------------------------5--5--5--4--



E|---------------------------------------------------------------------
B|---------------------------------------------------------------------
G|---------------------------------------------------------------------
D|---------------------------------------------------------------------
A|------------------7-------------7-------------7-------------7--------
E|--9----9----9--7-----8----9--7-----8----9--7-----8----9--7-----8--9--



E|--------------------------------------------------
B|--------------------------------------------------
G|--------------------------------------------------
D|--------------------------------------------------
A|--4--4--4--3--3--3--------------------------------
E|--------------------4--4--4--6--6--6--5--5--5--5--



E|--------------------------------------------------------------------------------
B|--------------------------------------------------------------------------------
G|--------------------------------------------------------------------------------
D|--------------------------------------------------------------------------------
A|--4--4--4--3--------4--4--4--3--------------4--4--4--3------4--4--4--3----------
E|----------------------------------5--4------------------------------------4--3--



E|--------------------------------------------------
B|--------------------------------------------------
G|--------------------------------------------------
D|--------------------------------------------------
A|--------------------------------------------------
E|--4--3--------4--3--------4--7--4--6--4--7--4--3--
http://www.guitartabcreator.com
Guitar Tab Creator is intended to store guitar tab created through the tool. It currently does not support in-line text editing. Any text you place in here will be lost. If you need to comment on your tab, please use the "Tab Notes" section located below.