Spine- Rest

(/) Slide Up  (\) Slide Down  (h) Hammer On  (p) Pull Off  (b) Bend (r) Release (v) Vibrato


E|--------------------------------------------
B|--------------------------------------------
G|--------------------------------------------
D|--------------------------------------------
A|--------------------------------------------
E|--3--3--3--3--3--3--3--7--7--7--4--4--4--4--



E|--------------------------------------------------------------------------
B|--------------------------------------------------------------------------
G|--------------------------------------------------------------------------
D|--------------------------------------------------------------------------
A|--------------------------------------------------------------------------
E|--3--3--0--0--3------3--3--6--6--4------3--3--0--0--3------3--3--6--6--2--



E|------------------------------------------------------------------------
B|------------------------------------------------------------------------
G|------------------------------------------------------------------------
D|------------------------------------------------------------------------
A|------------------------------------------------------------------------
E|--3--3--0--0--3------3--3--6--6--4------3--3--0--0--3------3----7----4--



E|-------------------------------------------------
B|-------------------------------------------------
G|-------------------------------------------------
D|-------------------------------------------------
A|-------------------------------------------------
E|--3--3--0--3--3--3--3--3----3--3--7--4--4--4--4--
http://www.guitartabcreator.com
Guitar Tab Creator is intended to store guitar tab created through the tool. It currently does not support in-line text editing. Any text you place in here will be lost. If you need to comment on your tab, please use the "Tab Notes" section located below.