Spine- Release

(/) Slide Up  (\) Slide Down  (h) Hammer On  (p) Pull Off  (b) Bend (r) Release (v) Vibrato


E|---------------------------------------------------
B|---------------------------------------------------
G|---------------------------------------------------
D|---------------------------------------------------
A|---------------------------------------------------
E|---5---5---5---5---8---8---8---8---4---4---4---4---



E|---------------------------------------------------
B|---------------------------------------------------
G|---------------------------------------------------
D|---------------------------------------------------
A|----------------------------------------------8--6-
E|-5-5-5-8-8-4-4--5-5-5-8-8-4-4--5-5-5-8-8-4-4-------



E|---------------------------------------------------------------------
B|---------------------------------------------------------------------
G|---------------------------------------------------------------------
D|---------------------------------------------------------------------
A|-------------8-8-8-6-6-6-----------8-8-8-6-6-6-----------8-8-8-6-6-6-
E|-5-5-5-5-5-5-------------5-5-5-5-5-------------5-5-5-5-5-------------



E|---------------------------------------
B|---------------------------------------
G|---------------------------------------
D|---------------------------------------
A|---------------------------6---6-------
E|---5---5---5---3---3---3-----------5---



E|--------------------------------------------
B|--------------------------------------------
G|--------------------------------------------
D|--------------------------------------------
A|--------------------------------------------
E|--5--5--5--5--5--5--5--5--3--0--6--6--6--6--



E|---------------------------------------
B|---------------------------------------
G|---------------------------------------
D|---------------------------------------
A|---8---8---8---6---6---6---------------
E|---------------------------6---6---5---
http://www.guitartabcreator.com
Guitar Tab Creator is intended to store guitar tab created through the tool. It currently does not support in-line text editing. Any text you place in here will be lost. If you need to comment on your tab, please use the "Tab Notes" section located below.