Carry On My Wayward Son

(/) Slide Up  (\) Slide Down  (h) Hammer On  (p) Pull Off  (b) Bend (r) Release (v) Vibrato

(W|WW) Whole (H|HH) Half (Q|QQ) Quarter (E|EE) 8th (S|SS) 16th (T|TT) 32nd (X|XX) 64th


t: E E E Q E E E Q E E E E E E E Q E Q
E|------------------------------------------------------
B|------------------------------------------------------
G|------------------------------------------------------
D|-------------------------------5----------------------
A|-----------3-----------5--5/7-----7\5--3--5-----5-----
E|--5--3--5-----5--3--5------------------------3-----2--



E|--------------
B|--------------
G|--------------
D|--------------
A|--2--2--------
E|--0--0--------

http://www.guitartabcreator.com
Guitar Tab Creator is intended to store guitar tab created through the tool. It currently does not support in-line text editing. Any text you place in here will be lost. If you need to comment on your tab, please use the "Tab Notes" section located below.