cancion del mariachi

(/) Slide Up  (\) Slide Down  (h) Hammer On  (p) Pull Off  (b) Bend (r) Release (v) Vibrato


(/) Slide Up (\) Slide Down (h) Hammer On (p) Pull Off (b) Bend (r) Release (v) Vibrato


E|-----------------|--------------------|-----------------------|-----|--
B|--------0--------|--1--------0--------|--1--------0-----------|-----|--
G|-----0-----0-----|-----0--------0-----|-----0--------0-----2--|--2--|--
D|--------------2--|--------2--------2--|--------2--------0-----|--1--|--
A|-----------------|--------------------|-----------------------|--2--|--
E|--0--------------|--------------------|-----------------------|-----|--



E|-----------------|--------------------|-----------------------|-----|--
B|-----------------|--0--------0--------|--0--------0-----------|-----|--
G|--------2-----2--|-----2--------2-----|-----2--------2-----0--|--2--|--
D|-----1-----1-----|--------1--------1--|--------1--------2-----|--2--|--
A|--2--------------|--------------------|-----------------------|--2--|--
E|-----------------|--------------------|-----------------------|-----|--



E|-----------7--|--7----7--7----8--|--7----7-------8--|--
B|--------8-----|--8----8----------|--8----8--8----8--|--
G|-----9--------|----------9-------|----------9-------|--
D|--9-----------|------------------|------------------|--
A|--------------|------------------|------------------|--
E|--------------|------------------|------------------|--



E|--7----7-----------|------------7----|-----------5--5----|--
B|--8----8--8----10--|----7----7--7----|-----------7--7----|--
G|----------9----9---|----8----8--8----|-------------------|--
D|-------------------|----9----9--9----|-----0--7----------|--
A|-------------------|----9----9--9----|--0----------------|--
E|-------------------|----7----7--7----|-------------------|--



E|--5--5----7--5----|--5--5--7----5--5--|--------------------|--
B|--7--7----8--7----|--7--7--8----7--7--|----7--8------------|--
G|------------------|-------------------|----8--9------4--4--|--
D|------------------|-------------------|--------------5--5--|--
A|------------------|-------------------|--------------------|--
E|------------------|-------------------|--------------------|--



E|--------------------|--------------------|--------------------|--
B|--------------------|--------------------|--------------------|--
G|--4--4-----4--5--0--|--4--4-----4--5--0--|--4--4-----5--4--0--|--
D|--5--5-----5--5--5--|--5--5-----5--5--5--|--5--5-----5--5--5--|--
A|--------x--7--------|--------x--7--------|--------x--7--------|--
E|--0-----x-----------|--0-----x-----------|--0-----x-----------|--



E|--------------------|--------------------|-------------------|--
B|-----0--------------|--------------------|-------------------|--
G|--2--------2--2--2--|--2--2-----4--4-----|--2--2-----4\2-----|--
D|--1--------1--1--1--|--1--1-----------4--|--1--1----------4--|--
A|--2-----x--2--2--0--|--2--2--x--7--7--2--|--2--2--x----------|--
E|--------x-----------|--------x-----------|--------x----------|--



E|--------------------|--------------------|--------------------|--
B|--------------------|--------------------|--------------------|--
G|--0--0-----0--0--0--|--4--4-----4--5--0--|--4--4-----4--5--0--|--
D|--2--------2--2--2--|--5--5-----5--5--5--|--5--5-----5--5--5--|--
A|--2-----x--2--2--2--|--------x--7--------|--------x--7--------|--
E|--------x-----------|--0-----x-----------|--0-----x-----------|--



E|--------------------|--------------------|--------------------|--
B|--------------------|-----0--------------|--------------------|--
G|--4--4-----5--4--0--|--2--------2--2--2--|--2--2-----4--4-----|--
D|--5--5-----5--5--5--|--1--------1--1--1--|--1--1-----------4--|--
A|--------x--7--------|--2-----x--2--2--0--|--2--2--x--7--7--2--|--
E|--0-----x-----------|--------x-----------|--------x-----------|--



E|-------------------|--------------------|--12--12-----12/14-----|--
B|-------------------|-----0--------------|--10-------------------|--
G|--2--2-----4\2-----|--0--------0--0--0--|--9-----------------0--|--
D|--1--1----------4--|--2--------2--2--2--|--10-------------------|--
A|--2--2--x----------|--2-----x--2--2--2--|--0-------x------------|--
E|--------x----------|--------x-----------|----------x------------|--



E|--12---------12----------|--5--5-----5-----3--2--|--0--------0--------|--
B|------12-----12----------|-----------------------|--0--0--------0--0--|--
G|-----------------9---9---|-----------------------|--------------0--0--|--
D|-----------------9---9---|-----4-----------------|--------------0--0--|--
A|----------x------10--10--|--2-----x-----0--0-----|--0-----x-----------|--
E|--0-------x--------------|--------x--------------|--0-----x-----------|--



E|--5--2--3--5--3--2--|--0--------12----|---------12-------------|---------11--------------|--
B|--------------------|-----------12----|--8--12------12--8--12--|--0--12------12--10--12--|--
G|--------------------|-----------------|------------------------|-------------------------|--
D|--------------------|-----------------|------------------------|-------------------------|--
A|--2-----------------|-----------------|------------------------|-------------------------|--
E|--------------------|--0--------------|------------------------|-------------------------|--



E|---------12--------------|---------11--7------7--|-----11--7------7-----|-----
B|--0--12--12--12--10--12--|--0--12---------10-----|--0---------10-----0--|-----
G|---------0---------------|-----------------------|----------------------|-----
D|---------9---------------|-----------------------|----------------------|-----
A|---------0---------------|-----------------------|----------------------|-----
E|-------------------------|---------7-------------|----------------------|-----



E|------12-------------12--|-------------12---------|--10-----10\8------8\7--|-----
B|--12------8--12--12------|--8--12--12------8--12--|---------------10-------|-----
G|-------------------------|------------------------|------7-----------------|-----
D|-------------------------|------------------------|------------------------|-----
A|-------------------------|------------------------|------------------------|-----
E|--0----------------------|------------------------|------------------------|-----



E|-----7\5-----5\3-----3\2-----2--|--0-----0-----------|--0--|-----------------------|--
B|--8-------7-------5-------3-----|-----3-----1--0--1--|--0--|--1--------------------|--
G|--------------------------------|--------------------|--1--|-----2--0-----2--0-----|--
D|--------------------------------|--------------------|--2--|-----------4--------4--|--
A|--------------------------------|--------------------|--2--|-----------------------|--
E|--------------------------------|--------------------|-----|-----------------------|--



E|--------------|-----------7--|--7----7--7----8--|--7----7-------8--|--7--7---------|--
B|--------------|--------8-----|--8----8----------|--8----8--8----8--|--8--8--8--10--|--
G|--0-----------|-----9--------|----------9-------|----------9-------|--------9--9---|--
D|-----2--0--2--|--9-----------|------------------|------------------|---------------|--
A|-----------2--|--------------|------------------|------------------|---------------|--
E|-----------0--|--------------|------------------|------------------|---------------|--



E|------------7----|----------5--5----|--5--5----7--5----|--5--5--7----5--5--|--
B|----7----7--7----|----------7--7----|--7--7----8--7----|--7--7--8----7--7--|--
G|----8----8--8----|------------------|------------------|-------------------|--
D|----9----9--9----|-----0h7----------|------------------|-------------------|--
A|----9----9--9----|--0---------------|------------------|-------------------|--
E|----7----7--7----|------------------|------------------|-------------------|--



E|------------------|--------------------|--------------------|--------------------|--
B|--7--8------------|--------------------|--------------------|--------------------|--
G|--8--9------4--4--|--4--4-----4--5--0--|--4--4-----4--4--0--|--4--4-----4--5--0--|--
D|------------5--5--|--5--5-----5--5--5--|--5--5-----5--5--5--|--5--5-----5--5--5--|--
A|------------------|--------x--7--------|--------x--7--------|--------x--7--------|--
E|------------------|--0-----x-----------|--0-----x-----------|--0-----x-----------|--



E|--------------------|--------------------|-------------------|--------------------|--
B|-----0--------------|--------------------|-------------------|-----0--------------|--
G|--2--------2--2--2--|--2--2-----4--4-----|--2--2-----4/2-----|--0--------0--0--0--|--
D|--1--------1--1--1--|--1--1-----------4--|--1--1----------4--|--2--------2--2--2--|--
A|--2-----x--2--2--0--|--2--2--x--7--7--2--|--2--2--x----------|--2-----x--2--2--2--|--
E|--------x-----------|--------x-----------|--------x----------|--------x-----------|--



E|--------------------|--------------------|--------------------|--------------------|--
B|--------------------|--------------------|--------------------|-----0--------------|--
G|--4--4-----4--5--0--|--4--4-----4--5--0--|--4--4-----4--5--0--|--2--------2--2--2--|--
D|--5--5-----5--5--5--|--5--5-----5--5--5--|--5--5-----5--5--5--|--1--------1--1--1--|--
A|--------x--7--------|--------x--7--------|--------x--7--------|--2-----x--2--2--2--|--
E|--0-----x-----------|--0-----x-----------|--0-----x-----------|--------x-----------|--



E|--------------------|-------------------|--------------------|--12--12-----12/14-----|--
B|--------------------|-------------------|-----0--------------|--10-------------------|--
G|--2--2-----4--4-----|--2--2-----4\2-----|--0--------0--0--0--|--9-----------------0--|--
D|--1--1-----------4--|--1--1----------4--|--2--------2--2--2--|--10-------------------|--
A|--2--2--x--7--7--2--|--2--2--x----------|--2-----x--2--2--2--|--0-------x------------|--
E|--------x-----------|--------x----------|--------x-----------|----------x------------|--



E|--12---------12----------|--5--5-----5-----3--2--|--0--------0--------|-----
B|------12-----12----------|-----------------------|-----0--------0--0--|-----
G|-----------------9---9---|-----------------------|--------------0--0--|-----
D|-----------------9---9---|-----4-----------------|--------------0--0--|-----
A|----------x------10--10--|--2-----x-----0--0-----|--------x-----------|-----
E|--0-------x--------------|--------x--------------|--0-----x-----------|-----



E|--12--12-----12/14-----|--12---------12----------|--5--2--3--5--3--2--|--0----------|--
B|--10-------------------|------12-----12----------|--------------------|-------------|--
G|--9-----------------0--|-----------------9---9---|--------------------|-------------|--
D|--10-------------------|-----------------9---9---|--------------------|-------------|--
A|--0-------x------------|----------x------10--10--|--2-----------------|-------------|--
E|--0-------x------------|--0-------x--------------|--------------------|--0----------|--
http://www.guitartabcreator.com
Guitar Tab Creator is intended to store guitar tab created through the tool. It currently does not support in-line text editing. Any text you place in here will be lost. If you need to comment on your tab, please use the "Tab Notes" section located below.