a maj metal

(/) Slide Up  (\) Slide Down  (h) Hammer On  (p) Pull Off  (b) Bend (r) Release (v) Vibrato
E|----------10--12--14----------------------19p17p14--------------------------------------------------
B|--10--12--------------12--14--15--------------------15--17----------------------12h14h15------------
G|----------------------------------14--16--------------------16--18--16--14--16------------13h14p13--
D|----------------------------------------------------------------------------------------------------
A|----------------------------------------------------------------------------------------------------
E|----------------------------------------------------------------------------------------------------



E|----------12p10p9---------------------------------------------------14p12p10--------------------
B|--9h10p9-----------10--12--14v------------------------------10--12------------3--5--------------
G|--------------------------------11h13p11--14----------------------------------------4--6--7-----
D|----------------------------------------------11h12p11--14--------------------------------------
A|------------------------------------------------------------------------------------------------
E|------------------------------------------------------------------------------------------------



E|-------------------------------------
B|-------------------------------------
G|-------------------------------------
D|-----------4--6--7-------------------
A|--2--4--5----------------------------
E|--------------------7--9--10--5v-----
http://www.guitartabcreator.com
Guitar Tab Creator is intended to store guitar tab created through the tool. It currently does not support in-line text editing. Any text you place in here will be lost. If you need to comment on your tab, please use the "Tab Notes" section located below.