g min pen

(/) Slide Up  (\) Slide Down  (h) Hammer On  (p) Pull Off  (b) Bend (r) Release (v) Vibrato
E|----------------13h15----------------13h15----------------13h15----------------13h15-----
B|---------13h15----------------13h15----------------13h15----------------13h15------------
G|--12h15----------------12h15----------------12h15----------------12h15-------------------
D|-----------------------------------------------------------------------------------------
A|-----------------------------------------------------------------------------------------
E|-----------------------------------------------------------------------------------------



E|--15--18b20-------------------20--18--15v--13--15--------------------------------------10----------
B|-------------15--18-------20-----------------------13--15--13h14p13h14p13h14p13h14p13------11--8v--
G|---------------------17v---------------------------------------------------------------------------
D|---------------------------------------------------------------------------------------------------
A|---------------------------------------------------------------------------------------------------
E|---------------------------------------------------------------------------------------------------



E|---------6--3----------------------------------18b20--15v--
B|------8-------------3--8------------------13v--------------
G|--10-----------5p3--------10--12---------------------------
D|----------------------------------12--15-------------------
A|-----------------------------------------------------------
E|-----------------------------------------------------------
http://www.guitartabcreator.com
Guitar Tab Creator is intended to store guitar tab created through the tool. It currently does not support in-line text editing. Any text you place in here will be lost. If you need to comment on your tab, please use the "Tab Notes" section located below.