e min tuneee

(/) Slide Up  (\) Slide Down  (h) Hammer On  (p) Pull Off  (b) Bend (r) Release (v) Vibrato
E|----------------5b7--7--10-------------------------12--15--17------------------------------
B|--5b8-----5--3--------------8--10--------8--10b12--------------15--17-----12--10h12b15-----
G|-------4---------------------------7--9--------------------------------9-------------------
D|-------------------------------------------------------------------------------------------
A|-------------------------------------------------------------------------------------------
E|-------------------------------------------------------------------------------------------



E|---------------12h15--10h12--7h10--5h7--3h5-----------------------------------------
B|--17------17v--------------------------------5h8--8h10--10h12--12h15--15h17--17b20--
G|------16----------------------------------------------------------------------------
D|------------------------------------------------------------------------------------
A|------------------------------------------------------------------------------------
E|------------------------------------------------------------------------------------



E|--------------------------------------------|--------------|------------------------------
B|--------------------------------------------|--------------|--5h8--5h10--5h12--5h10--5h8--
G|--------------------------------------------|--------------|------------------------------
D|-----------------2--------------------------|--------------|------------------------------
A|-----7--0--5--2--2--------------------------|--2--2--5--7--|------------------------------
E|--0--------------0--0--3--0-----------------|--0--0--3--5--|------------------------------



E|--------------------------
B|--------------3--3--------
G|--------------2--2--------
D|--2--2--2--2--0--0--2--2--
A|--2--2--0--0--------2--2--
E|--0--0--------------3--3--
http://www.guitartabcreator.com
Guitar Tab Creator is intended to store guitar tab created through the tool. It currently does not support in-line text editing. Any text you place in here will be lost. If you need to comment on your tab, please use the "Tab Notes" section located below.