e maj then phy

(/) Slide Up  (\) Slide Down  (h) Hammer On  (p) Pull Off  (b) Bend (r) Release (v) Vibrato
E|--------------------------------------------------------------12--11--9-----------------------
B|----------------------12--10--9--------------------12--10--9----------------------------------
G|----------13--14--11--------------------11--13--9---------------------------------------------
D|--14--12-------------------------11--9----------------------------------------------11--9-----
A|-------------------------------------------------------------------------12--11--9---------7--
E|----------------------------------------------------------------------------------------------



E|--------------------7--5--4----------------------------------------------------------------------
B|-----------7--9--5-----------5p4h5h4h5-----10h12---------13--10--8--10---------------5--6--8-----
G|----------------------------------------9---------10h12-----------------9------------------------
D|--9--7--6------------------------------------------------------------------7--9--10--------------
A|-------------------------------------------------------------------------------------------------
E|-------------------------------------------------------------------------------------------------



E|----------------15p13p12-------------------------17p15p13------------------------------------------
B|------------12------------13--12--15-----------------------15--17h18------------------13p12h13-----
G|--7--9--10----------------------------14--16b17----------------------------------------------------
D|--------------------------------------------------------------------------14--15--12---------------
A|----------------------------------------------------------------------14---------------------------
E|---------------------------------------------------------------------------------------------------



E|--15p13p12-------------
B|-----------------------
G|------------14--16b17--
D|-----------------------
A|-----------------------
E|-----------------------
http://www.guitartabcreator.com
Guitar Tab Creator is intended to store guitar tab created through the tool. It currently does not support in-line text editing. Any text you place in here will be lost. If you need to comment on your tab, please use the "Tab Notes" section located below.