e maj pen solo

(/) Slide Up  (\) Slide Down  (h) Hammer On  (p) Pull Off  (b) Bend (r) Release (v) Vibrato


E|----------------4b7--7--9-----------------------12--14--16-----------------------------
B|--5b7-----5--2-------------7--9--------7--9b12--------------14--17-----12--9h12b14-----
G|-------4-------------------------6--9-------------------------------9------------------
D|---------------------------------------------------------------------------------------
A|---------------------------------------------------------------------------------------
E|---------------------------------------------------------------------------------------



E|---------------12h14--9h12--7h9--4h7--------------------------------------------
B|--17------17v-------------------------2h5--5h7--7h9--9h12--12h14--14h17--17b19--
G|------16------------------------------------------------------------------------
D|--------------------------------------------------------------------------------
A|--------------------------------------------------------------------------------
E|--------------------------------------------------------------------------------
http://www.guitartabcreator.com
Guitar Tab Creator is intended to store guitar tab created through the tool. It currently does not support in-line text editing. Any text you place in here will be lost. If you need to comment on your tab, please use the "Tab Notes" section located below.