e blues

(/) Slide Up  (\) Slide Down  (h) Hammer On  (p) Pull Off  (b) Bend (r) Release (v) Vibrato

E|----------------------------------------------------------------12------------12--10---------------
B|-----------3b5------------------3b5---------5--8--------10----------10h11p10----------12--11--15v--
G|-----4--2-------2--3v-----4--2-------2--3v--------7--9------9v-------------------------------------
D|--2--------------------2---------------------------------------------------------------------------
A|---------------------------------------------------------------------------------------------------
E|---------------------------------------------------------------------------------------------------



E|----------------------15--18p17p15--19p18p15------------------0--
B|----------------------------------------------17--15----------0--
G|--12--14--15------------------------------------------16--14--0--
D|--------------12--14------------------------------------------2--
A|--------------------------------------------------------------2--
E|--------------------------------------------------------------0--
http://www.guitartabcreator.com
Guitar Tab Creator is intended to store guitar tab created through the tool. It currently does not support in-line text editing. Any text you place in here will be lost. If you need to comment on your tab, please use the "Tab Notes" section located below.