d blues

(/) Slide Up  (\) Slide Down  (h) Hammer On  (p) Pull Off  (b) Bend (r) Release (v) Vibrato


E|---------------------------------------------------------------------------------
B|--15v---------------------------10--13-----------------------15--18b20-----------
G|-------17--14----------12--14v----------12---------13h14p13-------------17--19v--
D|---------------15--12-----------------------15b17--------------------------------
A|---------------------------------------------------------------------------------
E|---------------------------------------------------------------------------------



E|--17p16p15------------------------------------------------5--4--3--------------------------------
B|----------------15v------------------------------------------------1h3--6--6--8--9--10--9--8-----
G|------------17-----------------------12--14----------13v-----------------------------------------
D|---------------------17--15--17--18----------15--12----------------------------------------------
A|-------------------------------------------------------------------------------------------------
E|-------------------------------------------------------------------------------------------------
http://www.guitartabcreator.com
Guitar Tab Creator is intended to store guitar tab created through the tool. It currently does not support in-line text editing. Any text you place in here will be lost. If you need to comment on your tab, please use the "Tab Notes" section located below.