c min pent

(/) Slide Up  (\) Slide Down  (h) Hammer On  (p) Pull Off  (b) Bend (r) Release (v) Vibrato
E|-----------------------20--18--15--18b20v--18b20v--8p6------------------------------13p11h13p11--
B|--------------------------------------------------------8h13----------------13--11---------------
G|--17--17--15--------------------------------------------------12p8--10--12-----------------------
D|--------------17--15v----------------------------------------------------------------------------
A|-------------------------------------------------------------------------------------------------
E|-------------------------------------------------------------------------------------------------



E|-------------------------------------------------18-----------------------15--13--11--------
B|--16b18r16b18r16-------18b20r18-------20b20b---------16h18p16--20b20b13v--------------12b---
G|------------------15v------------17v--------------------------------------------------------
D|--------------------------------------------17v---------------------------------------------
A|--------------------------------------------------------------------------------------------
E|--------------------------------------------------------------------------------------------



E|-------------------------------------------------------------------------------
B|-------------------------------------------------------------------------------
G|--12h15p12\10/12---------------------------------------------------------------
D|------------------13--10\8/10--------------------------------------------------
A|-------------------------------13--10\8/10----------13--10---------------------
E|--------------------------------------------13--11----------8v--13p8h11b8\6h8--
http://www.guitartabcreator.com
Guitar Tab Creator is intended to store guitar tab created through the tool. It currently does not support in-line text editing. Any text you place in here will be lost. If you need to comment on your tab, please use the "Tab Notes" section located below.