c min bv2

(/) Slide Up  (\) Slide Down  (h) Hammer On  (p) Pull Off  (b) Bend (r) Release (v) Vibrato

E|---------------------------------------------------------------------------------
B|--13--------------11----------------13-----------------16b18--16b18--------------
G|------12--11--10------12b12br12p10------12h15------------------------15b17--12v--
D|-----------------------------------------------14--13----------------------------
A|---------------------------------------------------------------------------------
E|---------------------------------------------------------------------------------



E|--15--13--11--14b18----------------------------------------------------------------------
B|---------------------13b16---------------------------------------------------------------
G|----------------------------12b15-------------------------10p8h9-------------------------
D|-----------------------------------14--15b17----------------------10p8----------10b13p8--
A|----------------------------------------------13b15---------------------10p8h9-----------
E|-----------------------------------------------------15v---------------------------------



E|--15--13--12--------------------15--13--12--------------------15--13--12------------------------
B|--------------13--11------------------------13--11------------------------13--11----------------
G|----------------------12--10\8----------------------12--10\8----------------------12--10--8-----
D|------------------------------------------------------------------------------------------------
A|------------------------------------------------------------------------------------------------
E|------------------------------------------------------------------------------------------------



E|-------------------
B|-------------------
G|-------------------
D|-------------------
A|--10--9--8\7v------
E|---------------8v--
http://www.guitartabcreator.com
Guitar Tab Creator is intended to store guitar tab created through the tool. It currently does not support in-line text editing. Any text you place in here will be lost. If you need to comment on your tab, please use the "Tab Notes" section located below.