c maj

(/) Slide Up  (\) Slide Down  (h) Hammer On  (p) Pull Off  (b) Bend (r) Release (v) Vibrato


E|---------15p12--13----------------------------------12h13--12h13--12h13--15--13--12-----
B|--13p12-------------15---------12h13--12h13--12h13--------------------------------------
G|------------------------14p12-----------------------------------------------------------
D|----------------------------------------------------------------------------------------
A|----------------------------------------------------------------------------------------
E|----------------------------------------------------------------------------------------



E|--------------------------12-13------------------------------------
B|--15--13--12--------------12h13--6--5--3---------------------------
G|--------------16--14--12------------------5--4---------------------
D|------------------------------------------------5--3---------------
A|------------------------------------------------------5--3---------
E|------------------------------------------------------------5--3v--
http://www.guitartabcreator.com
Guitar Tab Creator is intended to store guitar tab created through the tool. It currently does not support in-line text editing. Any text you place in here will be lost. If you need to comment on your tab, please use the "Tab Notes" section located below.