blues b v2

(/) Slide Up  (\) Slide Down  (h) Hammer On  (p) Pull Off  (b) Bend (r) Release (v) Vibrato
E|---------------------17--14--13---------------------------------------------
B|---------------------------------15------------------------15--17------18v--
G|-------------------------------------14v---------------------------16-------
D|----------------------------------------------------------------------------
A|--2p0h2p0h2p0h2p0h2-----------------------2p0h2p0h2p0h2p0-------------------
E|----------------------------------------------------------------------------



E|-------------------------------------------------------------------
B|---------------------5--3------------------------------------------
G|---------------------------4--2h7----------------------------------
D|------------------------------------------------------2p0h2p0h2p0--
A|--2p0h2p0h2p0h2p0h2----------------0h2p0h2p0h2p0h2p0---------------
E|-------------------------------------------------------------------



E|-------------------2p0h1p0h2p0h1p0h2p1p0h2bp1p0--14p13p12-----
B|--3p0h3p0h3p0h3p0---------------------------------------------
G|--------------------------------------------------------------
D|--------------------------------------------------------------
A|--------------------------------------------------------------
E|--------------------------------------------------------------



E|--12p11p10----------------------------------------------------------------
B|------------12p11p10------------------------------------------------------
G|----------------------11p10p9---------------------------------------------
D|-------------------------------12b14r12p9p0h9b0h9p0h8p0h8p0h8p0h7p0h7-----
A|--------------------------------------------------------------------------
E|--------------------------------------------------------------------------



E|-----------------------
B|-----------------------
G|-----------------------
D|--9b12r9b12r9b12r9p7v--
A|-----------------------
E|-----------------------
http://www.guitartabcreator.com
Guitar Tab Creator is intended to store guitar tab created through the tool. It currently does not support in-line text editing. Any text you place in here will be lost. If you need to comment on your tab, please use the "Tab Notes" section located below.