blues b v2

(/) Slide Up  (\) Slide Down  (h) Hammer On  (p) Pull Off  (b) Bend (r) Release (v) Vibrato


E|---------------------17--14--13---------------------------------------------
B|---------------------------------15------------------------15--17------18v--
G|-------------------------------------14v---------------------------16-------
D|----------------------------------------------------------------------------
A|--2p0h2p0h2p0h2p0h2-----------------------2p0h2p0h2p0h2p0-------------------
E|----------------------------------------------------------------------------



E|-----------------------------------
B|---------------------5--3----------
G|---------------------------4--2h7--
D|-----------------------------------
A|--2p0h2p0h2p0h2p0h2----------------
E|-----------------------------------
http://www.guitartabcreator.com
Guitar Tab Creator is intended to store guitar tab created through the tool. It currently does not support in-line text editing. Any text you place in here will be lost. If you need to comment on your tab, please use the "Tab Notes" section located below.