b wt

(/) Slide Up  (\) Slide Down  (h) Hammer On  (p) Pull Off  (b) Bend (r) Release (v) Vibrato

E|--------------------------------15p13p11--19--17--15--------------------------------------
B|---------------------14p12hp10------------------------18--16-------12--10--8--------------
G|-----------14p12p10-------------------------------------------18v-------------10--8-------
D|--13p11p9----------------------------------------------------------------------------9\---
A|------------------------------------------------------------------------------------------
E|------------------------------------------------------------------------------------------



E|--1h3p1--3h5p3--5h7p5--7h9p7--9h11p9--11h13p11--13h15p13-----------------------------------
B|----------------------------------------------------------14p12---------------------14p12--
G|-----------------------------------------------------------------14p12---------------------
D|------------------------------------------------------------------------13p11--------------
A|-------------------------------------------------------------------------------12v---------
E|-------------------------------------------------------------------------------------------



E|-------------------------------------------------------
B|--14p10h14p8h12p6h12p4h12p2----------------------------
G|-----------------------------12p4v---------------------
D|------------------------------------11p3---------------
A|------------------------------------------12p2---------
E|------------------------------------------------11p1v--
http://www.guitartabcreator.com
Guitar Tab Creator is intended to store guitar tab created through the tool. It currently does not support in-line text editing. Any text you place in here will be lost. If you need to comment on your tab, please use the "Tab Notes" section located below.