b phy

(/) Slide Up  (\) Slide Down  (h) Hammer On  (p) Pull Off  (b) Bend (r) Release (v) Vibrato


E|---------------------------------------------------------------------------------------
B|---------5b7h12p5p3--7p5------------------------------------------12--10---------------
G|--4b5p2-------------------7p5------------------11------11h12--9v----------7------------
D|-------------------------------7p5-----------------10------------------------10b12--7--
A|------------------------------------7p5------------------------------------------------
E|-----------------------------------------7p5v------------------------------------------



E|--15p14p12----------------------------15-17-15----------19--17--15--------------------------
B|------------13p12h13p12h13p12---------15h17p15--19--17--------------17----------------------
G|-------------------------------14p12------------------------------------16------------------
D|----------------------------------------------------------------------------14h16h17p16p14--
A|--------------------------------------------------------------------------------------------
E|--------------------------------------------------------------------------------------------
http://www.guitartabcreator.com
Guitar Tab Creator is intended to store guitar tab created through the tool. It currently does not support in-line text editing. Any text you place in here will be lost. If you need to comment on your tab, please use the "Tab Notes" section located below.