b mixo solo

(/) Slide Up  (\) Slide Down  (h) Hammer On  (p) Pull Off  (b) Bend (r) Release (v) Vibrato


E|----------------------------------12--11--9--------------14--12--11----------------------------
B|----------------------12--10-----------------------------------------14--12--10----------------
G|-------------8h9--6v----------11-------------11b13r11p9--------------------------13--11--------
D|--9h11--7h9------------------------------------------------------------------------------9h11--
A|-----------------------------------------------------------------------------------------------
E|-----------------------------------------------------------------------------------------------



E|----------------5p4p0---------2------------
B|-----------------------5p4p0--2\12b14r12v--
G|-------8h9p8\4-----------------------------
D|--9\7--------------------------------------
A|-------------------------------------------
E|-------------------------------------------
http://www.guitartabcreator.com
Guitar Tab Creator is intended to store guitar tab created through the tool. It currently does not support in-line text editing. Any text you place in here will be lost. If you need to comment on your tab, please use the "Tab Notes" section located below.