b min pent

(/) Slide Up  (\) Slide Down  (h) Hammer On  (p) Pull Off  (b) Bend (r) Release (v) Vibrato
E|----------------12p10---------12p10---------12p10--17--14--------------------------
B|---------12p10---------12p10---------12p10-----------------15--17--19--------------
G|-----11----------------------------------------------------------------16--19--14--
D|--9--------------------------------------------------------------------------------
A|-----------------------------------------------------------------------------------
E|-----------------------------------------------------------------------------------



E|-----------14-----------------------------------------------------12--10--7------------------
B|---------------12---------------------------------15p12b15r12p10-------------10--7-----------
G|-------------------11---------------------------------------------------------------9--7-----
D|--14--12v--------------12-----------------------------------------------------------------9--
A|---------------------------9-----------------------------------------------------------------
E|------------------------------10--7v--h14p7h10p7---------------------------------------------



E|--------------------------------
B|--15b17-------------------------
G|---------14h16p14h19p14h21p14v--
D|--------------------------------
A|--------------------------------
E|--------------------------------
http://www.guitartabcreator.com
Guitar Tab Creator is intended to store guitar tab created through the tool. It currently does not support in-line text editing. Any text you place in here will be lost. If you need to comment on your tab, please use the "Tab Notes" section located below.