b major

(/) Slide Up  (\) Slide Down  (h) Hammer On  (p) Pull Off  (b) Bend (r) Release (v) Vibrato
E|----------------------------------12--14-----------------------------------14--12--11----------
B|--------------------------12--14----------16--14---------------------------------------12--11--
G|------------------11--13--------------------------13--15--16-----------------------------------
D|----------11--13----------------------------------------------13h14h16p13----------------------
A|--14--13---------------------------------------------------------------------------------------
E|-----------------------------------------------------------------------------------------------



E|---------------------------------------------------------------------------------------
B|---------------------------------------------------------------------------------------
G|--9\8/9--11----------------------------------------------------------------------------
D|-------------9\8/9--11----------------------------------------------------2h4p2--------
A|------------------------9--11--------------------------------------2h4p2---------------
E|-------------------------------9h11p9--7h9p7--6h7p6--4h6p4--2h4p2----------------------



E|-----------------------------11--12--14--16--18--19-------------------
B|-----------------11--12--14--------------------------16--17--19-------
G|---------11--13--------------------------------------------------18v--
D|----------------------------------------------------------------------
A|----------------------------------------------------------------------
E|--2h4p0---------------------------------------------------------------
http://www.guitartabcreator.com
Guitar Tab Creator is intended to store guitar tab created through the tool. It currently does not support in-line text editing. Any text you place in here will be lost. If you need to comment on your tab, please use the "Tab Notes" section located below.