b lyd

(/) Slide Up  (\) Slide Down  (h) Hammer On  (p) Pull Off  (b) Bend (r) Release (v) Vibrato


E|--------------------------------------------------9h11--------9h11--------9h11--7-----13--
B|--------------------------------------------9h11--------9h11--------9h11--------7h12------
G|--------10h11--------10h11--------10h11--8------------------------------------------------
D|--9h11---------9h11---------9h11---------8------------------------------------------------
A|------------------------------------------------------------------------------------------
E|------------------------------------------------------------------------------------------



E|--11--------9--11--------9--11--------9--14--13--11-----------------------------------------
B|------9h11---------9h11---------9h11-----------------14--12--11-----------------------------
G|-----------------------------------------------------------------15--13--11-----------------
D|-----------------------------------------------------------------------------15--13--11-----
A|--------------------------------------------------------------------------------------------
E|--------------------------------------------------------------------------------------------



E|---------------------------
B|---------------------------
G|---------------------------
D|---------------------------
A|--14--13--11---------------
E|--------------14--13--11v--
http://www.guitartabcreator.com
Guitar Tab Creator is intended to store guitar tab created through the tool. It currently does not support in-line text editing. Any text you place in here will be lost. If you need to comment on your tab, please use the "Tab Notes" section located below.