b gypo

(/) Slide Up  (\) Slide Down  (h) Hammer On  (p) Pull Off  (b) Bend (r) Release (v) Vibrato
E|------------------------------15--12----------------------------------------------------------
B|--------------------------------------13v-----------------------------------------------------
G|-------------------------------------------12--14--------------------------------11b12p9\8/9--
D|---------------------------------------------------13--14b16--9v----------9--10---------------
A|------------------------------------------------------------------12--10----------------------
E|--7--7--7h8--8p7--5--3--2--0------------------------------------------------------------------



E|-----------------------------------------------------------------------------------------------
B|---------------------------4b5r4-------------------------------12----------13v----------16b17--
G|---------------------------0-----------8h9-------------------------11--12---------------0------
D|------------------4--5------------5p4-------7--9--------------------------------13--14---------
A|--------6--7--3v----------------------------------7--10p9--------------------------------------
E|--7--5------------------7----------------------------------8v----------------------------------



E|------------12b14b15b-------
B|--17b13b12--0--0--0--12b----
G|--0--0--0------------0--16--
D|----------------------------
A|----------------------------
E|----------------------------
http://www.guitartabcreator.com
Guitar Tab Creator is intended to store guitar tab created through the tool. It currently does not support in-line text editing. Any text you place in here will be lost. If you need to comment on your tab, please use the "Tab Notes" section located below.