b chrome

(/) Slide Up  (\) Slide Down  (h) Hammer On  (p) Pull Off  (b) Bend (r) Release (v) Vibrato


E|----------------------------15p14p13--------------5p4p3h15p5p3h14p4p3h13p5p3h12p4p3--
B|--12h14h15--12----------14------------5p3--------------------------------------------
G|----------------14--13---------------------4h9p4-------------------------------------
D|-------------------------------------------------------------------------------------
A|-------------------------------------------------------------------------------------
E|-------------------------------------------------------------------------------------



E|--5p3---------------------------16--14--13---------------------------------15p12----------------
B|-------4p3----------------------------------15--13---------------15h18p15---------13p12---------
G|------------5p3-------------------------------------14p13h14p13--------------------------13p12--
D|-----------------4p3----------------------------------------------------------------------------
A|----------------------5p3-----------------------------------------------------------------------
E|---------------------------4p3------------------------------------------------------------------



E|-----------------------------------------------20--19--17----------------------------
B|-----------------------19----------------------------------19v--17v--15v--12\10/12v--
G|---------------------------18--------------17----------------------------------------
D|--13p12------------------------16--18--20--------------------------------------------
A|---------14p12-----------------------------------------------------------------------
E|----------------13p12----------------------------------------------------------------
http://www.guitartabcreator.com
Guitar Tab Creator is intended to store guitar tab created through the tool. It currently does not support in-line text editing. Any text you place in here will be lost. If you need to comment on your tab, please use the "Tab Notes" section located below.