a#

(/) Slide Up  (\) Slide Down  (h) Hammer On  (p) Pull Off  (b) Bend (r) Release (v) Vibrato

E|----------------------------------13--11--9---------------
B|------------------14--13------11-----------------10--11v--
G|--15--14------------------10-----------------11-----------
D|----------16--13------------------------------------------
A|----------------------------------------------------------
E|----------------------------------------------------------



E|-----------------11--10-----------------10--12--9-----5h6p5--
B|--11---------10---------------------10-------------5---------
G|------9--10---------------------10---------------------------
D|-------------------------8--11-------------------------------
A|-------------------------------------------------------------
E|-------------------------------------------------------------
http://www.guitartabcreator.com
Guitar Tab Creator is intended to store guitar tab created through the tool. It currently does not support in-line text editing. Any text you place in here will be lost. If you need to comment on your tab, please use the "Tab Notes" section located below.