No Ordinary Love - MYMP

(/) Slide Up  (\) Slide Down  (h) Hammer On  (p) Pull Off  (b) Bend (r) Release (v) Vibrato


E|--5------5---------|--5--------------|-----------------|--
B|--3-------------3--|--2-------3------|------3----------|--
G|-------------------|-----2----2------|------0----------|--
D|--0----------------|-----------------|-----------------|--
A|-------------------|-----------------|-----------------|--
E|-------------------|--2-------2------|------3----------|--



E|-----------0-----------|-----------0------------|-----------2---------0--|--
B|--------3--------3-----|--------3--------3------|--------3-------3-------|--
G|-----2--------------2--|-----2------------------|-----4------------------|--
D|--0-----------0--------|--4-----------4---------|--5---------------------|--
A|-----------------------|------------------------|------------------------|--
E|-----------------------|------------------------|------------------------|--



E|-----------2-----------|--------------------2----|--------------3----------|--------------0--|-----
B|----------------2------|--------------3----------|--------------------3----|-----------------|-----
G|--------3--------------|-----------2-------------|-----------3-------------|-----2-----------|-----
D|-----4-----------------|--------4----------------|--------5--------5--5----|-----0-----------|-----
A|-----------------------|--0--2-----------2-------|-------------------------|--0--------------|-----
E|--2--------------------|-------------------------|--2--3-------------------|-----------------|-----



E|--
B|--
G|--
D|--
A|--
E|--
http://www.guitartabcreator.com
Guitar Tab Creator is intended to store guitar tab created through the tool. It currently does not support in-line text editing. Any text you place in here will be lost. If you need to comment on your tab, please use the "Tab Notes" section located below.