The Burning

(/) Slide Up  (\) Slide Down  (h) Hammer On  (p) Pull Off  (b) Bend (r) Release (v) Vibrato


E|---------------------------------------------------------------------------
B|---------------------------------------------------------------------------
G|----------------------------------------------0----------------2--0--------
D|------------------------------2--0---------------4--4--2----2--------4--0--
A|--2--2--0--2--2h3--2----------------3p2----2-------------------------------
E|----------------------0----0-----------------------------------------------



E|----------------------------------------------------------------------
B|----------------------------------------------------------------------
G|--------------------------------------------------0-------------------
D|-----0--0h2--0----------------------------0----------4--0-------------
A|--2-------------3--2----2--0--2--3--2--3-------2-----------0----2-----
E|-------------------------------------------------------------------0--
http://www.guitartabcreator.com
Guitar Tab Creator is intended to store guitar tab created through the tool. It currently does not support in-line text editing. Any text you place in here will be lost. If you need to comment on your tab, please use the "Tab Notes" section located below.