tu

(/) Slide Up  (\) Slide Down  (h) Hammer On  (p) Pull Off  (b) Bend (r) Release (v) Vibrato

E|--------12-12-10------12-12--------12-12-10------12-12-------------------
B|---9-12----------12-9---------9-12----------12-9-------------------------
G|-9--------------------------9--------------------------------------------
D|-----------------------------------------------------------7-9-9-7---9-9-
A|-------------------------------------------------------7-9---------7-----
E|-------------------------------------------------------------------------



E|--------12-12-10------12-12--------12-12-10------12-12----------------------------12-12-10-
B|---9-12----------12-9---------9-12----------12-9-----------------------------9-12----------
G|-9--------------------------9----------------------------------------------9---------------
D|-----------------------------------------------------------7-9-9-7-----9-9-----------------
A|-------------------------------------------------------7-9---------9-7---------------------
E|-------------------------------------------------------------------------------------------
http://www.guitartabcreator.com
Guitar Tab Creator is intended to store guitar tab created through the tool. It currently does not support in-line text editing. Any text you place in here will be lost. If you need to comment on your tab, please use the "Tab Notes" section located below.