'Spanish Style' Song-Lead Intro

(/) Slide Up  (\) Slide Down  (h) Hammer On  (p) Pull Off  (b) Bend (r) Release (v) Vibrato

E|------12h14--14/15--------15--14h15p14----------------------------------------------------------
B|----------------------------------------12v----------------------------------------------15/16--
G|------------------------------------------------------------------------------------------------
D|------------------------------------------------------------------------------------------------
A|-----------------------------------------------12h14--14/15--------15--14h15p14------12---------
E|---------------------------------------------------------------------------------15-------------



E|--16--13--15--15/16------16/18\13--------13--12------13--12------12------12-------------
B|-------------------------------------------------13----------13------13-----------------
G|-----------------------------------------------------------------------------14v--------
D|----------------------------------------------------------------------------------------
A|----------------------------------------------------------------------------------------
E|----------------------------------------------------------------------------------------



E|-------------------------------------------------------------17b18b17--15------15b16b15--13--
B|--13----------13----------13----------13-----------------------------------------------------
G|------14----------14----------14----------14------14v----------------------------------------
D|----------17----------17----------17----------17---------------------------------------------
A|---------------------------------------------------------------------------------------------
E|---------------------------------------------------------------------------------------------



E|----------------------------------------------14h16--16--16--16--14h16----
B|-----------------------------------14h16--16------------------------------
G|------------------------12h14--14-----------------------------------------
D|-------------12h14--14----------------------------------------------------
A|--12h14--14---------------------------------------------------------------
E|--------------------------------------------------------------------------
http://www.guitartabcreator.com
Guitar Tab Creator is intended to store guitar tab created through the tool. It currently does not support in-line text editing. Any text you place in here will be lost. If you need to comment on your tab, please use the "Tab Notes" section located below.