Project Night

(/) Slide Up  (\) Slide Down  (h) Hammer On  (p) Pull Off  (b) Bend (r) Release (v) Vibrato


E|----------------------------------------------------------------2-------------2----------
B|------------------------------------5-------------5----------------3-------------3-------
G|--------6-------------6----------------6-------------6-------2-------------2-------------
D|-----------7-------------7-------7-------------7----------0-------------0----------------
A|-----7-------------7----------7-------------7--------------------------------------------
E|--5-------------5------------------------------------------------------------------------



E|--------0-------------0-----3--5--7--
B|-----------3-------------3-----------
G|-------------------------------------
D|--2-------------2--------------------
A|-----3-------------3-----------------
E|-------------------------------------
http://www.guitartabcreator.com
Guitar Tab Creator is intended to store guitar tab created through the tool. It currently does not support in-line text editing. Any text you place in here will be lost. If you need to comment on your tab, please use the "Tab Notes" section located below.