Godfather Theme

(/) Slide Up  (\) Slide Down  (h) Hammer On  (p) Pull Off  (b) Bend (r) Release (v) Vibrato


E|-----------|-----0--3--0--2--0--------|--------------------------|-----0--3--0--2--0--------|--
B|-----5--8--|--7-----------1-----1--3--|--0-----------0-----5--8--|--7-----------0-----0-----|--
G|--4--------|--------------2-----------|-----0-----0-----4--------|--------------0--------0--|--
D|-----------|--------------------------|--------2-----------------|--------------------------|--
A|-----------|--------------------------|--------------------------|--------------------------|--
E|-----------|--0-----------0-----------|--0-----------------------|--0-----------3-----------|--



E|-------------------------|-------------------------|---------------0-----------|--
B|----------------------4--|--7-----------7----------|-----0------0-----------3--|--
G|--2--------------2/5-----|-----5-----5--------5/8--|--9------------------0-----|--
D|-----2-----2-------------|--------7--------7-------|------------------2--------|--
A|--0-----3-----0----------|--0----------------------|--------10-----------------|--
E|-------------------------|-------------------------|--0------------------------|--



E|--------------------------|------------------------------|-----------0--2--0h2p0--------|--
B|--1--0--3--1--1--0--0-----|-----------------4b5--4p5--4--|--3---------------------1-----|--
G|--------------2-----------|------------------------------|-----5---------------------2--|--
D|-----------------------1--|--2---------------------------|--------4-----0---------------|--
A|--2-----------2-----------|-----2-----2------------------|--5---------------------------|--
E|--------------------------|--0-----3-----0---------------|------------------------------|--



E|--------------------------|--------------------------|--------------------------|--
B|--0-----------0--0--3--0--|--------------------1-----|--------------------5--8--|--
G|-----0-----0--------------|--2-----------2--2-----3--|--4--------------4--------|--
D|--------0-----------------|-----3-----3--------------|-----4-----4--------------|--
A|--------------------------|--------3-----------------|--------6-----------------|--
E|--3-----------------------|--1-----------------------|--------------7-----------|--



E|-----0--3--0--2--0--------|--------------------------|-----0--3--0--2--0--------|--
B|--7-----------1-----1--3--|--0-----------0-----5--8--|--7-----------0-----0-----|--
G|--------------2-----------|-----0-----0-----4--------|--------------0--------0--|--
D|--------------------------|--------2-----------------|--------------------------|--
A|--------------------------|--------------------------|--------------------------|--
E|--0-----------0-----------|--0-----------------------|--0-----------3-----------|--



E|--------------------------|-------------------------|--------------0-----------|--
B|-----------------------4--|--7-----------7--7/8--4--|--5--------------------3--|--
G|--2--------------2--5-----|-----5-----5-------------|-----4-----4--------0-----|--
D|-----2-----2--------------|--------7----------------|--------5--------2--------|--
A|--0-----3-----0-----------|--0----------------------|--------------------------|--
E|--------------------------|-------------------------|--0-----------------------|--



E|--------------------------|-----------------|--
B|--1--0--3--1--1--0--0-----|-----------------|--
G|--------------2-----------|-----------------|--
D|-----------------------1--|--2--------------|--
A|--2-----------2-----------|-----2-----2-----|--
E|--------------------------|--0-----3-----0--|--
http://www.guitartabcreator.com
Guitar Tab Creator is intended to store guitar tab created through the tool. It currently does not support in-line text editing. Any text you place in here will be lost. If you need to comment on your tab, please use the "Tab Notes" section located below.