Classical Gas

(/) Slide Up  (\) Slide Down  (h) Hammer On  (p) Pull Off  (b) Bend (r) Release (v) Vibrato

Stave 1:

E|-----------|--------|-----------|--------------------------|--------|-------------------|-----
B|--1-----1--|--0-----|--0--------|-----------0h1p0-----0h1--|--0-----|--0-------------0--|-----
G|-----2-----|--0-----|--0--2--0--|--2-----2---------2-------|--0-----|--0--2--0--0h2-----|-----
D|-----------|--0-----|--2--------|--2-----------------------|--0-----|--2----------------|-----
A|--0--------|--------|-----------|--0--0--------------------|--------|-------------------|-----
E|-----------|--3--2--|--0--------|--------------------------|--3--2--|--0----------------|-----

Stave 2:

E|--------------------------------|--0--------------|-----------|------------------------------|--
B|-----------0--------1--------3--|--------3--1--3--|-----1--0--|-----0h1p0--1--------1-----0--|--
G|--2-----0--------2--------0-----|-----0-----2-----|--2--------|---------------2--------------|--
D|--2-----------------------------|-----------------|-----------|------------------------2-----|--
A|--0-----------0--------2--------|--3--------------|-----------|--0---------------0-----------|--
E|-----3--------------------------|-----------------|-----------|------------------------------|--

Stave 3:

E|--------------------------|--------------------------|--------------------------|--
B|--------------------------|--0--------------0--------|--------------------------|--
G|--------0--------0--------|-----2--0--2-----------2--|--------2--------2--------|--
D|-----0--------0--------0--|--2-----------------------|-----2--------2--------2--|--
A|--------------------------|--------------------------|--0--------0--------0-----|--
E|--3--------2--------0-----|--------------0-----0-----|--------------------------|--

Stave 4:

E|---------------------------|--------------------------|--------------------------|--
B|--0h1p0--1--------1-----0--|--------------------------|--0--------------0--------|--
G|------------2--------2-----|--------0--------0--------|-----2--0--2--------------|--
D|---------------------------|-----0--------0--------0--|--2--------------------2--|--
A|--0------------0-----------|--------------------------|--------------------------|--
E|---------------------------|--3--------2--------0-----|--------------0-----0-----|--

http://www.guitartabcreator.com
Guitar Tab Creator is intended to store guitar tab created through the tool. It currently does not support in-line text editing. Any text you place in here will be lost. If you need to comment on your tab, please use the "Tab Notes" section located below.