LetsDance

(/) Slide Up  (\) Slide Down  (h) Hammer On  (p) Pull Off  (b) Bend (r) Release (v) Vibrato

E|-----------------------------------------------------------------------------------
B|------------------------------------6/11v----6--6----------------16b18r16h14-------
G|--8b10r8h6--8--6-----------------------------6--6----8b10r8p6h8---------------15v--
D|------------------8p6--------------------------------------------------------------
A|-----------------------8--6\4------------------------------------------------------
E|-------------------------------6---------------------------------------------------



E|----------------------------------------------------------------------------------------------
B|--16b18--14-------------16b18r16h14--16b18r16b18--14-----------------14------16------14-------
G|-------------15--15v----------------------------------15--15v----15------15------15------15v--
D|----------------------------------------------------------------------------------------------
A|----------------------------------------------------------------------------------------------
E|----------------------------------------------------------------------------------------------
http://www.guitartabcreator.com
Guitar Tab Creator is intended to store guitar tab created through the tool. It currently does not support in-line text editing. Any text you place in here will be lost. If you need to comment on your tab, please use the "Tab Notes" section located below.