Chlled out

(/) Slide Up  (\) Slide Down  (h) Hammer On  (p) Pull Off  (b) Bend (r) Release (v) Vibrato


E|------------------------------------------------------------------------------
B|------------------------------------------------------------------------------
G|------------------------------------------------------------------------------
D|--8--8------8--8------5--5------5--5------1--1------3--3------1--1------3--3--
A|--8--8------8--8------5--5------5--5------1--1------3--3------1--1------3--3--
E|--8--8------8--8------5--5------5--5------1--1------3--3------1--1------3--3--



E|------------------------------------------
B|------------------------------------------
G|------------------------------------------
D|--12----10----8----7----3----5----3----5--
A|--8-----8-----5----5----1----3----1----3--
E|--8-----8-----5----5----1----3----1----3--



E|--------------------------------------------------
B|--------------------------------------------------
G|---------3------------------------------3---------
D|--1------3------3----5----3------1------3------3--
A|--1------1------3----5----3------1------1------3--
E|--1-------------3----5----3------1-------------3--


Breakdown
E|---------------------------------------------------------------------
B|---------------------------------------------------------------------
G|---------------------------------------------------------------------
D|--0---0-0--0-0---------------------------0---0-0--0-0----0-0----0-0--
A|--0---0-0--0-0----------3-5-3-0----------0---0-0--0-0----0-0-0--0-0-0
E|--0---0-0--0-0--000-000---------3-5-3-0--0---0-0--0-0----0-0-1--0-0-1



E|-------------------------------------------------------------------
B|-------------------------------------------------------------------
G|-------------------------------------------------------------------
D|--0---0-0--0-0--2-3-2-0----------------0---0-0--0-0----0-0----0-0--
A|--0---0-0--0-0---------3-5-3-0---------0---0-0--0-0----0-0-0--0-0-0
E|--0---0-0--0-0----------------3-5-3-0--0---0-0--0-0----0-0-1--0-0-1
http://www.gu-itartabcreator.com
Guitar Tab Creator is intended to store guitar tab created through the tool. It currently does not support in-line text editing. Any text you place in here will be lost. If you need to comment on your tab, please use the "Tab Notes" section located below.