Today

(/) Slide Up  (\) Slide Down  (h) Hammer On  (p) Pull Off  (b) Bend (r) Release (v) Vibrato


E|--------2--------1----------------------------------2--------1---------------------------------
B|--------------------------4--2--4--2----------------------------------4--2--4--2---------------
G|-----3--------3--------3----------------3--1-----3--------3--------3------------------3--1-----
D|--4--------4--------4-------------------------4--------4--------4------------------------------
A|-----------------------------------------------------------------------------------------------
E|-----------------------------------------------------------------------------------------------



E|--------2--------1------------------------------------2--------1------------------------------
B|--------------------------4--2--4--2------------------------------------4--2--4--2------------
G|-----3--------3--------3------------------3--1-----3--------3--------3------------------3--1--
D|--1--------1--------1---------------------------1--------1--------1---------------------------
A|----------------------------------------------------------------------------------------------
E|----------------------------------------------------------------------------------------------



E|-----
B|-----
G|-----
D|-----
A|--2--
E|-----
http://www.guitartabcreator.com
Guitar Tab Creator is intended to store guitar tab created through the tool. It currently does not support in-line text editing. Any text you place in here will be lost. If you need to comment on your tab, please use the "Tab Notes" section located below.