technical riff

(/) Slide Up  (\) Slide Down  (h) Hammer On  (p) Pull Off  (b) Bend (r) Release (v) Vibrato


E|----------------------------------------------------------------------------------
B|----------------------------------------------------------------------------------
G|----------------------------------------------------------------------------------
D|--------------------0-------------------------------------------------------------
A|-----------------------8----------------7--5-----5--3-----3--1-----1--------0-----
E|--0--0--0--0--7--8--------10--7--8--10--------6--------5--------2-----2--3-----0--



E|--------------------------------------------
B|--------------------------------------------
G|--------------------------------------------
D|--------------------------------------------
A|--------------------0--6--5--3-----0--5-----
E|--0--0--0--0--5--8--------------4--------6--
http://www.guitartabcreator.com
Guitar Tab Creator is intended to store guitar tab created through the tool. It currently does not support in-line text editing. Any text you place in here will be lost. If you need to comment on your tab, please use the "Tab Notes" section located below.