Blink 182- Stay Together for the Kids

(/) Slide Up  (\) Slide Down  (h) Hammer On  (p) Pull Off  (b) Bend (r) Release (v) Vibrato

E|-----------------------------------------------------------------------------------------------
B|-----------------------------------------------------------------------------------------------
G|-----------------------------------------------------------------------------------------------
D|-----0-----7--0-----4--0-----0-----7--0-----4--0-----0-----4--0-----5--0-----2-----4--5--2--0--
A|--5-----5--------5--------4-----4--------4--------2-----2--------2--------0-----0--------------
E|-----------------------------------------------------------------------------------------------



E|------------------------------------------------------------------
B|-----3-------3-------3-------3--------3-------3-------3-------3---
G|-----2-------2-------2-------2--------2-------2-------2-------2---
D|-0-0---0-0-0---0-0-0---0-0-0---0----------------------------------
A|----------------------------------2-2---2-2-2---2-2-2---2-2-2---2-
E|------------------------------------------------------------------



E|--------------------------------------------------------
B|-----3-------3-------3-------3------5-------2-------2---
G|-----2-------2-------2-------2------2-------2-------2---
D|--------------------------------------------------------
A|-0-0---0-0-0---0-0-0---0-0-0---0--0---0-0-0---0-0-0---0-
E|--------------------------------------------------------



E|-----
B|-----
G|-----
D|-----
A|-5---
E|-3---
http://www.guitartabcreator.com
Guitar Tab Creator is intended to store guitar tab created through the tool. It currently does not support in-line text editing. Any text you place in here will be lost. If you need to comment on your tab, please use the "Tab Notes" section located below.