It's my life

(/) Slide Up  (\) Slide Down  (h) Hammer On  (p) Pull Off  (b) Bend (r) Release (v) Vibrato
E|--0--0--------0--1--0--|--0--0--------0--1--0--|--
B|--1--1-----1-----------|--1--1-----1-----------|--
G|--2--2--2--------------|--2--2--2--------------|--
D|--2--2-----------------|--2--2-----------------|--
A|--0--0-----------------|--0--0-----------------|--
E|-----------------------|-----------------------|--



E|-----------------------|--------------------------|--
B|--1--1--1--1--1--1--1--|--2--2--2--2--2--2--2--2--|--
G|--2--2--2--2--2--2--2--|--3--3--3--3--3--3--3--3--|--
D|--2--2--2--2--2--2--2--|--2--2--2--2--2--2--2--2--|--
A|-----------------------|--------------------------|--
E|-----------------------|--------------------------|--



E|----------|----------|----------|----------|----------|--
B|----------|----------|----------|----------|----------|--
G|----------|----------|----------|----------|----------|--
D|----------|----------|----------|----------|----------|--
A|----------|----------|----------|----------|----------|--
E|----------|----------|----------|----------|----------|--



E|----------|----------|-----------|-----------------------------------
B|----------|----------|-----------|-----------------------------------
G|----------|----------|-----------|-----------------------------------
D|----------|----------|-----------|-----------------------------------
A|----------|----------|--2--2--3--|-----------------------------------
E|----------|----------|--3--3--4--|-----------------------------------
http://www.guitartabcreator.com
Guitar Tab Creator is intended to store guitar tab created through the tool. It currently does not support in-line text editing. Any text you place in here will be lost. If you need to comment on your tab, please use the "Tab Notes" section located below.