Banjo

(/) Slide Up  (\) Slide Down  (h) Hammer On  (p) Pull Off  (b) Bend (r) Release (v) Vibrato


E|------------0-------------------------0--
B|---------------------------------0-------
G|-------0----------------------0----------
D|-------------------------0---------------
A|--0-------------------0------------------
E|-------------------0---------------------



E|----------------------------------------------------------------------------
B|----0--0--0--1----0----0--0--0--1--0------0--0--0--1--0------0--0--0--1--0--
G|----0--0--0--0----0----0--0--0--0--0------0--0--0--0--0------0--0--0--0--0--
D|----0--0--0--2----0----0--0--0--2--0------0--0--0--2--0------0--0--0--2--0--
A|----------------------------------------------------------------------------
E|----------------------------------------------------------------------------



E|--------------------------------------------------------------
B|-----------------------------------------------0--1--3--1--0--
G|-----------------------------------0--0--0--2-----------------
D|--------------------0-----------------------------------------
A|-----------0--2--3-----3--2-----------------------------------
E|--3--3--3-----------------------------------------------------



E|--------------------------------------------------------------
B|-----------------------------------------------0--1--3--1--0--
G|-----------------------------------0--0--0--2-----------------
D|--------------------0-----------------------------------------
A|-----------0--2--3-----3--2-----------------------------------
E|--3--3--3-----------------------------------------------------



E|-----------------------------------------------0--1--3--1--0--
B|-----------------------------------1--1--1--3-----------------
G|--------------------0-----------------------------------------
D|-----------0--2--3-----3--2-----------------------------------
A|--3--3--3-----------------------------------------------------
E|--------------------------------------------------------------



E|-----------------------------------------------------------
B|-----------------------------------------------0--1--3--0--
G|-----------------------------------0--0--0--2--------------
D|--------------------------0--------------------------------
A|-----------0--2--0--3--2-----------------------------------
E|--3--3--3--------------------------------------------------



E|--------------------------------------------0--2--3--3--2--
B|-----------------------------------------------------------
G|-----------------0--2--0-----------3--3--3-----------------
D|--0--0--0--2--4-----------4--------------------------------
A|-----------------------------------------------------------
E|-----------------------------------------------------------



E|-----------------------------------------------------------------------
B|--0--0--0--1--0------0--0--0--1------0--0--0--1--0------0--0--0--1--0--
G|--0--0--0--0--0------0--0--0--0------0--0--0--0--0------0--0--0--0--0--
D|--0--0--0--2--0------0--0--0--2------0--0--0--2--0------0--0--0--2--0--
A|-----------------------------------------------------------------------
E|-----------------------------------------------------------------------
http://www.guitartabcreator.com
Guitar Tab Creator is intended to store guitar tab created through the tool. It currently does not support in-line text editing. Any text you place in here will be lost. If you need to comment on your tab, please use the "Tab Notes" section located below.