Just An Idea

(/) Slide Up  (\) Slide Down  (h) Hammer On  (p) Pull Off  (b) Bend (r) Release (v) Vibrato


E|---------------------------------------------------------------
B|---------------------------------------------------------------
G|---------------------------------------------------------------
D|------------------------------------------------7--7--7--7--7--
A|--7--7--7--7--7--5--5--5--5--5--2--2--2--2--2--5--5--5--5--5---x2
E|5---5--5--5--5--3--3--3--3--3--0--0--0--0--0-------------------


E|---------------------------------------------------------------
B|---------------------------------------------------------------
G|--------------------------------77-77-77-77-7-7-55-55-55-------
D|77-77-77-77-7-7-55-55-55-55-5-5-77-77-77-77-7-7-55-55-55-77-77-
A|77-77-77-77-7-7-55-55-55-55-5-5-55-55-55-55-5-5-33-33-33-77-77-x2
E|55-55-55-55-5-5-33-33-33-33-3-3--------------------------55-55- http://www.guitartabcreator.com
Guitar Tab Creator is intended to store guitar tab created through the tool. It currently does not support in-line text editing. Any text you place in here will be lost. If you need to comment on your tab, please use the "Tab Notes" section located below.