simple rock

(/) Slide Up  (\) Slide Down  (h) Hammer On  (p) Pull Off  (b) Bend (r) Release (v) Vibrato


E|--------------------------------------------------
B|--------------------------------------------------
G|--------------------------------------------------
D|-----------0--1--0-----------------0--1--0--------
A|-----0--3-----------3--0-----0--3-----------3--0--
E|--1-----------------------1-----------------------



E|--------------------------------------------------
B|--------------------------------------------------
G|-----------0--1--0--------------------------------
D|-----0--3-----------3--0-----------0--0-----------
A|--1--------------------------0--3--------0--3--0--
E|--------------------------1-----------------------



E|--------------------------------------------
B|--------------------------------------------
G|--------0-----------------------------------
D|-----2-----2-----0--3--0-----------0--------
A|--3-----------0--------------0--3-----------
E|--------------------------1-----------1--1--
http://www.guitartabcreator.com
Guitar Tab Creator is intended to store guitar tab created through the tool. It currently does not support in-line text editing. Any text you place in here will be lost. If you need to comment on your tab, please use the "Tab Notes" section located below.